  0
SECTION
  2
HEADER
  9
$ACADVER
  1
AC1009
  9
$INSBASE
 10
-2.217922598482244
 20
9.0
 30
0.0
  9
$EXTMIN
 10
-2.400559294520382
 20
9.0
 30
0.0
  9
$EXTMAX
 10
171.0
 20
102.4005592945204
 30
0.0
  9
$LIMMIN
 10
0.0
 20
0.0
  9
$LIMMAX
 10
420.0
 20
297.0
  9
$ORTHOMODE
 70
     0
  9
$REGENMODE
 70
     0
  9
$FILLMODE
 70
     1
  9
$QTEXTMODE
 70
     0
  9
$MIRRTEXT
 70
     0
  9
$DRAGMODE
 70
     2
  9
$LTSCALE
 40
1.0
  9
$OSMODE
 70
     0
  9
$ATTMODE
 70
     1
  9
$TEXTSIZE
 40
3.5
  9
$TRACEWID
 40
0.1
  9
$TEXTSTYLE
  7
STANDARD
  9
$CLAYER
  8
0
  9
$CELTYPE
  6
BYLAYER
  9
$CECOLOR
 62
   256
  9
$DIMSCALE
 40
1.0
  9
$DIMASZ
 40
2.0
  9
$DIMEXO
 40
1.0
  9
$DIMDLI
 40
8.0
  9
$DIMRND
 40
0.0
  9
$DIMDLE
 40
0.0
  9
$DIMEXE
 40
2.0
  9
$DIMTP
 40
0.1
  9
$DIMTM
 40
0.1
  9
$DIMTXT
 40
3.5
  9
$DIMCEN
 40
2.0
  9
$DIMTSZ
 40
0.0
  9
$DIMTOL
 70
     0
  9
$DIMLIM
 70
     0
  9
$DIMTIH
 70
     0
  9
$DIMTOH
 70
     0
  9
$DIMSE1
 70
     0
  9
$DIMSE2
 70
     0
  9
$DIMTAD
 70
     1
  9
$DIMZIN
 70
     0
  9
$DIMBLK
  1

  9
$DIMASO
 70
     1
  9
$DIMSHO
 70
     0
  9
$DIMPOST
  1

  9
$DIMAPOST
  1

  9
$DIMALT
 70
     0
  9
$DIMALTD
 70
     2
  9
$DIMALTF
 40
25.39999999999999
  9
$DIMLFAC
 40
1.0
  9
$DIMTOFL
 70
     0
  9
$DIMTVP
 40
0.0
  9
$DIMTIX
 70
     0
  9
$DIMSOXD
 70
     0
  9
$DIMSAH
 70
     0
  9
$DIMBLK1
  1

  9
$DIMBLK2
  1

  9
$DIMSTYLE
  2
*UNNAMED
  9
$DIMCLRD
 70
     0
  9
$DIMCLRE
 70
     0
  9
$DIMCLRT
 70
     0
  9
$DIMTFAC
 40
1.0
  9
$DIMGAP
 40
0.09
  9
$LUNITS
 70
     2
  9
$LUPREC
 70
     3
  9
$SKETCHINC
 40
0.1
  9
$FILLETRAD
 40
20.0
  9
$AUNITS
 70
     0
  9
$AUPREC
 70
     1
  9
$MENU
  1

  9
$ELEVATION
 40
0.0
  9
$PELEVATION
 40
0.0
  9
$THICKNESS
 40
0.0
  9
$LIMCHECK
 70
     0
  9
$BLIPMODE
 70
     0
  9
$CHAMFERA
 40
0.0
  9
$CHAMFERB
 40
0.0
  9
$SKPOLY
 70
     1
  9
$TDCREATE
 40
2448530.463751620
  9
$TDUPDATE
 40
2449393.434218981
  9
$TDINDWG
 40
0.0028050926
  9
$TDUSRTIMER
 40
0.0028050926
  9
$USRTIMER
 70
     1
  9
$ANGBASE
 50
0.0
  9
$ANGDIR
 70
     0
  9
$PDMODE
 70
     3
  9
$PDSIZE
 40
0.0
  9
$PLINEWID
 40
0.0
  9
$COORDS
 70
     2
  9
$SPLFRAME
 70
     0
  9
$SPLINETYPE
 70
     6
  9
$SPLINESEGS
 70
     8
  9
$ATTDIA
 70
     1
  9
$ATTREQ
 70
     1
  9
$HANDLING
 70
     0
  9
$HANDSEED
  5
2EF
  9
$SURFTAB1
 70
     6
  9
$SURFTAB2
 70
     6
  9
$SURFTYPE
 70
     6
  9
$SURFU
 70
     6
  9
$SURFV
 70
     6
  9
$UCSNAME
  2

  9
$UCSORG
 10
0.0
 20
0.0
 30
0.0
  9
$UCSXDIR
 10
1.0
 20
0.0
 30
0.0
  9
$UCSYDIR
 10
0.0
 20
1.0
 30
0.0
  9
$PUCSNAME
  2

  9
$PUCSORG
 10
0.0
 20
0.0
 30
0.0
  9
$PUCSXDIR
 10
1.0
 20
0.0
 30
0.0
  9
$PUCSYDIR
 10
0.0
 20
1.0
 30
0.0
  9
$USERI1
 70
     0
  9
$USERI2
 70
     3
  9
$USERI3
 70
    15
  9
$USERI4
 70
     0
  9
$USERI5
 70
     0
  9
$USERR1
 40
1.0
  9
$USERR2
 40
1.0
  9
$USERR3
 40
0.0
  9
$USERR4
 40
1.0
  9
$USERR5
 40
0.0
  9
$WORLDVIEW
 70
     1
  9
$SHADEDGE
 70
     3
  9
$SHADEDIF
 70
    70
  9
$TILEMODE
 70
     1
  9
$MAXACTVP
 70
    16
  9
$PINSBASE
 10
0.0
 20
0.0
 30
0.0
  9
$PLIMCHECK
 70
     0
  9
$PEXTMIN
 10
1.000000000000000E+20
 20
1.000000000000000E+20
 30
1.000000000000000E+20
  9
$PEXTMAX
 10
-1.000000000000000E+20
 20
-1.000000000000000E+20
 30
-1.000000000000000E+20
  9
$PLIMMIN
 10
0.0
 20
0.0
  9
$PLIMMAX
 10
12.0
 20
9.0
  9
$UNITMODE
 70
     0
  9
$VISRETAIN
 70
     0
  9
$PLINEGEN
 70
     0
  9
$PSLTSCALE
 70
     0
  9
$TREEDEPTH
 70
  3020
  9
$DWGCODEPAGE
  3
undefined
  0
ENDSEC
  0
SECTION
  2
TABLES
  0
TABLE
  2
VPORT
 70
     2
  0
VPORT
  2
*ACTIVE
 70
     0
 10
0.0
 20
0.0
 11
1.0
 21
1.0
 12
84.39103870075886
 22
76.89261796762545
 13
0.0
 23
0.0
 14
1.0
 24
1.0
 15
10.0
 25
10.0
 16
0.0
 26
0.0
 36
1.0
 17
0.0
 27
0.0
 37
0.0
 40
135.7852359352509
 41
1.275675675675675
 42
50.0
 43
0.0
 44
0.0
 50
0.0
 51
0.0
 71
     0
 72
   100
 73
     1
 74
     1
 75
     0
 76
     0
 77
     0
 78
     0
  0
ENDTAB
  0
TABLE
  2
LTYPE
 70
     1
  0
LTYPE
  2
AUSGEZOGEN
 70
    64
  3
Solid line
 72
    65
 73
     0
 40
0.0
  0
ENDTAB
  0
TABLE
  2
LAYER
 70
     3
  0
LAYER
  2
0
 70
     0
 62
     7
  6
AUSGEZOGEN
  0
LAYER
  2
ITEM_50
 70
    64
 62
     7
  6
AUSGEZOGEN
  0
LAYER
  2
ITEM_HILFE
 70
    64
 62
     3
  6
AUSGEZOGEN
  0
ENDTAB
  0
TABLE
  2
STYLE
 70
     1
  0
STYLE
  2
STANDARD
 70
     0
 40
0.0
 41
1.0
 50
0.0
 71
     0
 42
3.5
  3
iso
  4

  0
ENDTAB
  0
TABLE
  2
VIEW
 70
     0
  0
ENDTAB
  0
TABLE
  2
UCS
 70
     0
  0
ENDTAB
  0
TABLE
  2
APPID
 70
     1
  0
APPID
  2
ACAD
 70
    64
  0
ENDTAB
  0
TABLE
  2
DIMSTYLE
 70
     0
  0
ENDTAB
  0
ENDSEC
  0
SECTION
  2
BLOCKS
  0
ENDSEC
  0
SECTION
  2
ENTITIES
  0
LINE
  8
ITEM_50
 10
160.0
 20
9.0
 30
0.0
 11
160.0
 21
10.0
 31
0.0
  0
LINE
  8
ITEM_50
 10
160.0
 20
10.0
 30
0.0
 11
0.0
 21
10.0
 31
0.0
  0
LINE
  8
ITEM_50
 10
0.0
 20
10.0
 30
0.0
 11
0.0
 21
9.0
 31
0.0
  0
LINE
  8
ITEM_50
 10
16.0
 20
9.0
 30
0.0
 11
16.0
 21
10.0
 31
0.0
  0
LINE
  8
ITEM_50
 10
24.0
 20
10.0
 30
0.0
 11
24.0
 21
9.0
 31
0.0
  0
LINE
  8
ITEM_50
 10
56.0
 20
9.0
 30
0.0
 11
56.0
 21
10.0
 31
0.0
  0
LINE
  8
ITEM_50
 10
64.0
 20
10.0
 30
0.0
 11
64.0
 21
9.0
 31
0.0
  0
LINE
  8
ITEM_50
 10
96.0
 20
9.0
 30
0.0
 11
96.0
 21
10.0
 31
0.0
  0
LINE
  8
ITEM_50
 10
104.0
 20
10.0
 30
0.0
 11
104.0
 21
9.0
 31
0.0
  0
LINE
  8
ITEM_50
 10
136.0
 20
9.0
 30
0.0
 11
136.0
 21
10.0
 31
0.0
  0
LINE
  8
ITEM_50
 10
144.0
 20
10.0
 30
0.0
 11
144.0
 21
9.0
 31
0.0
  0
LINE
  8
ITEM_50
 10
170.0
 20
20.0
 30
0.0
 11
171.0
 21
20.0
 31
0.0
  0
LINE
  8
ITEM_50
 10
171.0
 20
100.0
 30
0.0
 11
170.0
 21
100.0
 31
0.0
  0
LINE
  8
ITEM_50
 10
170.0
 20
100.0
 30
0.0
 11
170.0
 21
20.0
 31
0.0
  0
LINE
  8
ITEM_50
 10
170.0
 20
36.0
 30
0.0
 11
171.0
 21
36.0
 31
0.0
  0
LINE
  8
ITEM_50
 10
171.0
 20
44.0
 30
0.0
 11
170.0
 21
44.0
 31
0.0
  0
LINE
  8
ITEM_50
 10
170.0
 20
84.0
 30
0.0
 11
171.0
 21
84.0
 31
0.0
  0
LINE
  8
ITEM_50
 10
171.0
 20
76.0
 30
0.0
 11
170.0
 21
76.0
 31
0.0
  0
POINT
  8
ITEM_HILFE
 10
79.99999999999997
 20
59.99999999999997
 30
0.0
  0
POINT
  8
ITEM_HILFE
 10
120.0000000000001
 20
59.99999999999994
 30
0.0
  0
POINT
  8
ITEM_HILFE
 10
39.99999999999997
 20
59.99999999999997
 30
0.0
  0
POINT
  8
ITEM_HILFE
 10
160.0
 20
40.00000000000005
 30
0.0
  0
POINT
  8
ITEM_HILFE
 10
0.0
 20
40.0
 30
0.0
  0
CIRCLE
  8
ITEM_50
 10
140.0
 20
39.99999999999994
 30
0.0
 40
3.399999999999999
  0
CIRCLE
  8
ITEM_50
 10
19.99999999999994
 20
39.99999999999994
 30
0.0
 40
3.399999999999999
  0
CIRCLE
  8
ITEM_50
 10
59.99999999999997
 20
39.99999999999997
 30
0.0
 40
3.399999999999999
  0
CIRCLE
  8
ITEM_50
 10
99.99999999999997
 20
39.99999999999997
 30
0.0
 40
3.399999999999999
  0
POINT
  8
ITEM_HILFE
 10
0.0
 20
20.0
 30
0.0
  0
POINT
  8
ITEM_HILFE
 10
19.99999999999997
 20
19.99999999999997
 30
0.0
  0
POINT
  8
ITEM_HILFE
 10
59.99999999999997
 20
19.99999999999997
 30
0.0
  0
POINT
  8
ITEM_HILFE
 10
99.99999999999997
 20
19.99999999999997
 30
0.0
  0
POINT
  8
ITEM_HILFE
 10
140.0
 20
19.99999999999994
 30
0.0
  0
POINT
  8
ITEM_HILFE
 10
160.0
 20
19.99999999999994
 30
0.0
  0
POINT
  8
ITEM_HILFE
 10
160.0
 20
79.99999999999994
 30
0.0
  0
POINT
  8
ITEM_HILFE
 10
160.0
 20
100.0
 30
0.0
  0
POINT
  8
ITEM_HILFE
 10
140.0
 20
99.99999999999994
 30
0.0
  0
POINT
  8
ITEM_HILFE
 10
99.99999999999997
 20
99.99999999999997
 30
0.0
  0
POINT
  8
ITEM_HILFE
 10
59.99999999999997
 20
99.99999999999997
 30
0.0
  0
POINT
  8
ITEM_HILFE
 10
19.99999999999997
 20
99.99999999999997
 30
0.0
  0
POINT
  8
ITEM_HILFE
 10
0.0
 20
100.0
 30
0.0
  0
POINT
  8
ITEM_HILFE
 10
0.0
 20
80.0
 30
0.0
  0
CIRCLE
  8
ITEM_50
 10
99.99999999999997
 20
79.99999999999997
 30
0.0
 40
3.399999999999999
  0
CIRCLE
  8
ITEM_50
 10
59.99999999999997
 20
79.99999999999997
 30
0.0
 40
3.399999999999999
  0
CIRCLE
  8
ITEM_50
 10
19.99999999999994
 20
79.99999999999994
 30
0.0
 40
3.399999999999999
  0
CIRCLE
  8
ITEM_50
 10
140.0
 20
79.99999999999994
 30
0.0
 40
3.399999999999999
  0
POINT
  8
ITEM_HILFE
 10
19.99999999999997
 20
95.49999999999994
 30
0.0
  0
POINT
  8
ITEM_HILFE
 10
59.99999999999997
 20
95.49999999999994
 30
0.0
  0
POINT
  8
ITEM_HILFE
 10
99.99999999999997
 20
95.49999999999994
 30
0.0
  0
POINT
  8
ITEM_HILFE
 10
140.0
 20
95.49999999999991
 30
0.0
  0
POINT
  8
ITEM_HILFE
 10
19.99999999999997
 20
24.50000000000022
 30
0.0
  0
POINT
  8
ITEM_HILFE
 10
59.99999999999997
 20
24.50000000000022
 30
0.0
  0
POINT
  8
ITEM_HILFE
 10
99.99999999999997
 20
24.50000000000022
 30
0.0
  0
POINT
  8
ITEM_HILFE
 10
140.0
 20
24.50000000000019
 30
0.0
  0
POINT
  8
ITEM_HILFE
 10
4.499999999999943
 20
80.00000000000005
 30
0.0
  0
POINT
  8
ITEM_HILFE
 10
4.499999999999943
 20
40.00000000000005
 30
0.0
  0
POINT
  8
ITEM_HILFE
 10
155.5
 20
79.99999999999784
 30
0.0
  0
POINT
  8
ITEM_HILFE
 10
155.5
 20
39.99999999999784
 30
0.0
  0
LINE
  8
ITEM_50
 10
97.80694370873561
 20
87.74999999999994
 30
0.0
 11
100.0000000000001
 21
87.74999999999994
 31
0.0
  0
LINE
  8
ITEM_50
 10
100.0000000000001
 20
87.74999999999994
 30
0.0
 11
102.1930562912655
 21
87.74999999999997
 31
0.0
  0
ARC
  8
ITEM_50
 10
102.1930562912647
 20
91.7499999999997
 30
0.0
 40
3.99999999999973
 50
270.0000000000123
 51
306.6419281412283
  0
ARC
  8
ITEM_50
 10
89.65999999999964
 20
108.5999999999993
 30
0.0
 40
24.99999999999989
 50
306.6419281412179
 51
324.0201994025276
  0
ARC
  8
ITEM_50
 10
109.0813799715674
 20
94.50000000000004
 30
0.0
 40
0.999999999999986
 50
324.0201994025258
 51
90.0
  0
LINE
  8
ITEM_50
 10
109.0813799715674
 20
95.50000000000002
 30
0.0
 11
105.0
 21
95.49999999999997
 31
0.0
  0
ARC
  8
ITEM_50
 10
104.9999999999999
 20
96.49999999999995
 30
0.0
 40
0.9999999999999858
 50
180.0000000000008
 51
270.0000000000007
  0
LINE
  8
ITEM_50
 10
104.0
 20
96.49999999999994
 30
0.0
 11
103.9999999999999
 21
98.49999999999991
 31
0.0
  0
ARC
  8
ITEM_50
 10
105.4999999999999
 20
98.49999999999994
 30
0.0
 40
1.5
 50
90.0
 51
180.000000000001
  0
LINE
  8
ITEM_50
 10
105.4999999999999
 20
99.99999999999994
 30
0.0
 11
120.0000000000001
 21
99.99999999999994
 31
0.0
  0
LINE
  8
ITEM_50
 10
120.0000000000001
 20
99.99999999999994
 30
0.0
 11
134.5
 21
99.99999999999994
 31
0.0
  0
ARC
  8
ITEM_50
 10
134.5
 20
98.49999999999994
 30
0.0
 40
1.5
 50
359.9999999999989
 51
90.0
  0
LINE
  8
ITEM_50
 10
136.0
 20
98.49999999999991
 30
0.0
 11
135.9999999999999
 21
96.49999999999994
 31
0.0
  0
ARC
  8
ITEM_50
 10
134.9999999999999
 20
96.49999999999995
 30
0.0
 40
1.0
 50
270.0
 51
359.9999999999992
  0
LINE
  8
ITEM_50
 10
134.9999999999999
 20
95.49999999999997
 30
0.0
 11
130.9186200284324
 21
95.50000000000005
 31
0.0
  0
ARC
  8
ITEM_50
 10
130.9186200284324
 20
94.49999999999995
 30
0.0
 40
1.000000000000099
 50
89.99999999999674
 51
215.9798005974716
  0
ARC
  8
ITEM_50
 10
150.340000000001
 20
108.5999999999985
 30
0.0
 40
25.00000000000022
 50
215.9798005974698
 51
233.3580718587793
  0
ARC
  8
ITEM_50
 10
137.8069437087344
 20
91.75000000000001
 30
0.0
 40
4.000000000000046
 50
233.3580718587833
 51
269.9999999999992
  0
LINE
  8
ITEM_50
 10
137.8069437087343
 20
87.74999999999997
 30
0.0
 11
140.0
 21
87.74999999999994
 31
0.0
  0
LINE
  8
ITEM_50
 10
140.0
 20
87.74999999999994
 30
0.0
 11
142.1930562912643
 21
87.74999999999994
 31
0.0
  0
ARC
  8
ITEM_50
 10
142.1930562912645
 20
91.75000000000001
 30
0.0
 40
4.000000000000071
 50
269.9999999999967
 51
306.6419281412102
  0
ARC
  8
ITEM_50
 10
129.66
 20
108.5999999999996
 30
0.0
 40
24.9999999999999
 50
306.641928141214
 51
324.0201994025263
  0
ARC
  8
ITEM_50
 10
149.0813799715675
 20
94.49999999999994
 30
0.0
 40
0.9999999999999942
 50
324.0201994025251
 51
90.0
  0
LINE
  8
ITEM_50
 10
149.0813799715675
 20
95.49999999999994
 30
0.0
 11
145.0
 21
95.49999999999994
 31
0.0
  0
ARC
  8
ITEM_50
 10
145.0
 20
96.49999999999994
 30
0.0
 40
1.0
 50
180.0
 51
270.0
  0
LINE
  8
ITEM_50
 10
144.0
 20
96.49999999999994
 30
0.0
 11
144.0
 21
98.49999999999994
 31
0.0
  0
ARC
  8
ITEM_50
 10
145.5
 20
98.49999999999994
 30
0.0
 40
1.5
 50
90.0
 51
180.0
  0
LINE
  8
ITEM_50
 10
145.5
 20
99.99999999999994
 30
0.0
 11
156.0
 21
99.99999999999994
 31
0.0
  0
ARC
  8
ITEM_50
 10
156.0
 20
95.99999999999994
 30
0.0
 40
4.0
 50
0.0
 51
90.0
  0
LINE
  8
ITEM_50
 10
160.0
 20
95.99999999999994
 30
0.0
 11
160.0000000000001
 21
85.50000000000005
 31
0.0
  0
ARC
  8
ITEM_50
 10
158.5
 20
85.50000000000008
 30
0.0
 40
1.500000000000028
 50
269.9999999999989
 51
359.9999999999989
  0
LINE
  8
ITEM_50
 10
158.5
 20
84.00000000000005
 30
0.0
 11
156.5000000000001
 21
84.00000000000005
 31
0.0
  0
ARC
  8
ITEM_50
 10
156.5
 20
85.00000000000008
 30
0.0
 40
1.000000000000028
 50
180.0000000000016
 51
270.0000000000016
  0
LINE
  8
ITEM_50
 10
155.5
 20
85.00000000000005
 30
0.0
 11
155.5000000000001
 21
89.08137997156762
 31
0.0
  0
ARC
  8
ITEM_50
 10
154.5
 20
89.08137997156762
 30
0.0
 40
1.000000000000056
 50
0.0
 51
125.9798005974742
  0
ARC
  8
ITEM_50
 10
168.6000000000003
 20
69.66000000000077
 30
0.0
 40
24.99999999999976
 50
125.9798005974755
 51
143.3580718587878
  0
ARC
  8
ITEM_50
 10
151.75
 20
82.19305629126431
 30
0.0
 40
4.000000000000027
 50
143.3580718587854
 51
179.9999999999989
  0
LINE
  8
ITEM_50
 10
147.75
 20
82.19305629126438
 30
0.0
 11
147.75
 21
80.00000000000011
 31
0.0
  0
LINE
  8
ITEM_50
 10
147.75
 20
80.00000000000011
 30
0.0
 11
147.7500000000001
 21
77.80694370873578
 31
0.0
  0
ARC
  8
ITEM_50
 10
151.7500000000001
 20
77.80694370873547
 30
0.0
 40
4.000000000000056
 50
179.9999999999955
 51
216.6419281412089
  0
ARC
  8
ITEM_50
 10
168.5999999999998
 20
90.34000000000033
 30
0.0
 40
25.00000000000012
 50
216.6419281412144
 51
234.0201994025267
  0
ARC
  8
ITEM_50
 10
154.5000000000001
 20
70.91862002843252
 30
0.0
 40
0.999999999999966
 50
234.0201994025259
 51
0.0000000000008142
  0
LINE
  8
ITEM_50
 10
155.5
 20
70.91862002843254
 30
0.0
 11
155.5000000000001
 21
75.00000000000011
 31
0.0
  0
ARC
  8
ITEM_50
 10
156.5
 20
75.00000000000014
 30
0.0
 40
0.9999999999999716
 50
90.00000000000163
 51
180.0000000000016
  0
LINE
  8
ITEM_50
 10
156.5
 20
76.00000000000011
 30
0.0
 11
158.5000000000001
 21
76.00000000000011
 31
0.0
  0
ARC
  8
ITEM_50
 10
158.5
 20
74.50000000000014
 30
0.0
 40
1.499999999999971
 50
359.9999999999989
 51
89.99999999999892
  0
LINE
  8
ITEM_50
 10
160.0
 20
74.50000000000011
 30
0.0
 11
160.0
 21
64.00000000000022
 31
0.0
  0
LINE
  8
ITEM_50
 10
160.0
 20
64.00000000000022
 30
0.0
 11
160.0000000000001
 21
45.49999999999988
 31
0.0
  0
ARC
  8
ITEM_50
 10
158.5
 20
45.49999999999991
 30
0.0
 40
1.500000000000028
 50
269.9999999999989
 51
359.9999999999989
  0
LINE
  8
ITEM_50
 10
158.5
 20
43.99999999999988
 30
0.0
 11
156.5000000000001
 21
43.99999999999988
 31
0.0
  0
ARC
  8
ITEM_50
 10
156.5
 20
44.99999999999991
 30
0.0
 40
1.000000000000028
 50
180.0000000000016
 51
270.0000000000016
  0
LINE
  8
ITEM_50
 10
155.5
 20
44.99999999999988
 30
0.0
 11
155.5000000000001
 21
49.08137997156745
 31
0.0
  0
ARC
  8
ITEM_50
 10
154.5
 20
49.08137997156745
 30
0.0
 40
1.000000000000056
 50
0.0
 51
125.9798005974742
  0
ARC
  8
ITEM_50
 10
168.6000000000003
 20
29.66000000000058
 30
0.0
 40
24.99999999999979
 50
125.9798005974755
 51
143.3580718587878
  0
ARC
  8
ITEM_50
 10
151.75
 20
42.19305629126414
 30
0.0
 40
4.000000000000027
 50
143.3580718587854
 51
179.9999999999989
  0
LINE
  8
ITEM_50
 10
147.75
 20
42.19305629126421
 30
0.0
 11
147.75
 21
39.99999999999994
 31
0.0
  0
LINE
  8
ITEM_50
 10
147.75
 20
39.99999999999994
 30
0.0
 11
147.7500000000001
 21
37.80694370873561
 31
0.0
  0
ARC
  8
ITEM_50
 10
151.7500000000001
 20
37.8069437087353
 30
0.0
 40
4.000000000000056
 50
179.9999999999955
 51
216.6419281412089
  0
ARC
  8
ITEM_50
 10
168.5999999999998
 20
50.34000000000015
 30
0.0
 40
25.00000000000012
 50
216.6419281412144
 51
234.0201994025267
  0
ARC
  8
ITEM_50
 10
154.5000000000001
 20
30.91862002843235
 30
0.0
 40
0.999999999999966
 50
234.0201994025259
 51
0.0000000000008142
  0
LINE
  8
ITEM_50
 10
155.5
 20
30.91862002843237
 30
0.0
 11
155.5000000000001
 21
34.99999999999994
 31
0.0
  0
ARC
  8
ITEM_50
 10
156.5
 20
34.99999999999997
 30
0.0
 40
0.9999999999999716
 50
90.00000000000163
 51
180.0000000000016
  0
LINE
  8
ITEM_50
 10
156.5
 20
35.99999999999994
 30
0.0
 11
158.5000000000001
 21
35.99999999999994
 31
0.0
  0
ARC
  8
ITEM_50
 10
158.5
 20
34.49999999999997
 30
0.0
 40
1.499999999999971
 50
359.9999999999989
 51
89.99999999999892
  0
LINE
  8
ITEM_50
 10
160.0
 20
34.49999999999994
 30
0.0
 11
160.0
 21
24.00000000000022
 31
0.0
  0
ARC
  8
ITEM_50
 10
156.0
 20
24.00000000000022
 30
0.0
 40
4.0
 50
270.0
 51
0.0
  0
LINE
  8
ITEM_50
 10
156.0
 20
20.00000000000022
 30
0.0
 11
145.5
 21
20.00000000000022
 31
0.0
  0
ARC
  8
ITEM_50
 10
145.5
 20
21.50000000000022
 30
0.0
 40
1.5
 50
180.0
 51
270.0
  0
LINE
  8
ITEM_50
 10
144.0
 20
21.50000000000022
 30
0.0
 11
144.0
 21
23.50000000000022
 31
0.0
  0
ARC
  8
ITEM_50
 10
145.0
 20
23.50000000000022
 30
0.0
 40
1.0
 50
90.0
 51
180.0
  0
LINE
  8
ITEM_50
 10
145.0
 20
24.50000000000022
 30
0.0
 11
149.0813799715675
 21
24.50000000000022
 31
0.0
  0
ARC
  8
ITEM_50
 10
149.0813799715675
 20
25.50000000000025
 30
0.0
 40
1.000000000000028
 50
270.0
 51
35.97980059747295
  0
ARC
  8
ITEM_50
 10
129.6600000000005
 20
11.39999999999989
 30
0.0
 40
24.99999999999994
 50
35.97980059747536
 51
53.3580718587877
  0
ARC
  8
ITEM_50
 10
142.1930562912643
 20
28.25000000000027
 30
0.0
 40
3.999999999999956
 50
53.35807185878647
 51
90.0
  0
LINE
  8
ITEM_50
 10
142.1930562912643
 20
32.25000000000022
 30
0.0
 11
139.9999999999998
 21
32.25000000000022
 31
0.0
  0
LINE
  8
ITEM_50
 10
139.9999999999998
 20
32.25000000000022
 30
0.0
 11
137.8069437087343
 21
32.25000000000019
 31
0.0
  0
ARC
  8
ITEM_50
 10
137.8069437087352
 20
28.25000000000046
 30
0.0
 40
3.999999999999737
 50
90.0000000000122
 51
126.6419281412281
  0
ARC
  8
ITEM_50
 10
150.3400000000002
 20
11.40000000000082
 30
0.0
 40
24.99999999999989
 50
126.641928141218
 51
144.0201994025275
  0
ARC
  8
ITEM_50
 10
130.9186200284324
 20
25.50000000000012
 30
0.0
 40
0.999999999999986
 50
144.0201994025258
 51
270.0
  0
LINE
  8
ITEM_50
 10
130.9186200284324
 20
24.50000000000014
 30
0.0
 11
134.9999999999999
 21
24.50000000000019
 31
0.0
  0
ARC
  8
ITEM_50
 10
134.9999999999999
 20
23.5000000000002
 30
0.0
 40
0.9999999999999893
 50
0.0000000000010178
 51
90.0
  0
LINE
  8
ITEM_50
 10
135.9999999999999
 20
23.50000000000022
 30
0.0
 11
136.0
 21
21.50000000000025
 31
0.0
  0
ARC
  8
ITEM_50
 10
134.5
 20
21.50000000000023
 30
0.0
 40
1.5
 50
270.0
 51
0.0000000000009499
  0
LINE
  8
ITEM_50
 10
134.5
 20
20.00000000000022
 30
0.0
 11
119.9999999999998
 21
20.00000000000002
 31
0.0
  0
LINE
  8
ITEM_50
 10
119.9999999999998
 20
20.00000000000002
 30
0.0
 11
105.4999999999999
 21
20.00000000000002
 31
0.0
  0
ARC
  8
ITEM_50
 10
105.4999999999999
 20
21.50000000000003
 30
0.0
 40
1.500000000000003
 50
179.999999999999
 51
270.0
  0
LINE
  8
ITEM_50
 10
103.9999999999999
 20
21.50000000000005
 30
0.0
 11
104.0
 21
23.50000000000002
 31
0.0
  0
ARC
  8
ITEM_50
 10
104.9999999999999
 20
23.50000000000001
 30
0.0
 40
0.9999999999999858
 50
89.99999999999919
 51
179.9999999999989
  0
LINE
  8
ITEM_50
 10
105.0
 20
24.5
 30
0.0
 11
109.0813799715674
 21
24.49999999999991
 31
0.0
  0
ARC
  8
ITEM_50
 10
109.0813799715675
 20
25.50000000000001
 30
0.0
 40
1.000000000000099
 50
269.9999999999967
 51
35.9798005974717
  0
ARC
  8
ITEM_50
 10
89.65999999999885
 20
11.40000000000136
 30
0.0
 40
25.0000000000003
 50
35.97980059746996
 51
53.35807185877953
  0
ARC
  8
ITEM_50
 10
102.1930562912655
 20
28.25
 30
0.0
 40
3.999999999999992
 50
53.3580718587833
 51
89.99999999999919
  0
LINE
  8
ITEM_50
 10
102.1930562912655
 20
32.25
 30
0.0
 11
99.99999999999994
 21
32.25000000000002
 31
0.0
  0
LINE
  8
ITEM_50
 10
99.99999999999994
 20
32.25000000000002
 30
0.0
 11
97.80694370873561
 21
32.25000000000002
 31
0.0
  0
ARC
  8
ITEM_50
 10
97.8069437087354
 20
28.25
 30
0.0
 40
4.000000000000024
 50
89.99999999999694
 51
126.6419281412104
  0
ARC
  8
ITEM_50
 10
110.3399999999998
 20
11.4000000000002
 30
0.0
 40
24.99999999999996
 50
126.6419281412138
 51
144.0201994025261
  0
ARC
  8
ITEM_50
 10
90.91862002843237
 20
25.50000000000002
 30
0.0
 40
0.9999999999999942
 50
144.0201994025251
 51
270.0
  0
LINE
  8
ITEM_50
 10
90.91862002843237
 20
24.50000000000002
 30
0.0
 11
94.99999999999994
 21
24.50000000000002
 31
0.0
  0
ARC
  8
ITEM_50
 10
94.99999999999994
 20
23.50000000000002
 30
0.0
 40
1.0
 50
0.0
 51
90.0
  0
LINE
  8
ITEM_50
 10
95.99999999999994
 20
23.50000000000002
 30
0.0
 11
95.99999999999994
 21
21.50000000000002
 31
0.0
  0
ARC
  8
ITEM_50
 10
94.49999999999994
 20
21.50000000000002
 30
0.0
 40
1.5
 50
270.0
 51
0.0
  0
LINE
  8
ITEM_50
 10
94.49999999999994
 20
20.00000000000002
 30
0.0
 11
65.49999999999994
 21
20.00000000000002
 31
0.0
  0
ARC
  8
ITEM_50
 10
65.49999999999994
 20
21.50000000000003
 30
0.0
 40
1.500000000000003
 50
179.999999999999
 51
270.0
  0
LINE
  8
ITEM_50
 10
63.99999999999994
 20
21.50000000000005
 30
0.0
 11
64.0
 21
23.50000000000002
 31
0.0
  0
ARC
  8
ITEM_50
 10
64.99999999999998
 20
23.50000000000001
 30
0.0
 40
0.9999999999999858
 50
89.99999999999919
 51
179.9999999999989
  0
LINE
  8
ITEM_50
 10
65.0
 20
24.5
 30
0.0
 11
69.08137997156745
 21
24.49999999999991
 31
0.0
  0
ARC
  8
ITEM_50
 10
69.0813799715675
 20
25.5
 30
0.0
 40
1.000000000000092
 50
269.9999999999975
 51
35.9798005974725
  0
ARC
  8
ITEM_50
 10
49.65999999999885
 20
11.40000000000145
 30
0.0
 40
25.00000000000023
 50
35.97980059746981
 51
53.3580718587794
  0
ARC
  8
ITEM_50
 10
62.19305629126551
 20
28.25
 30
0.0
 40
3.999999999999996
 50
53.35807185878323
 51
89.99999999999909
  0
LINE
  8
ITEM_50
 10
62.19305629126557
 20
32.25
 30
0.0
 11
59.99999999999994
 21
32.25000000000002
 31
0.0
  0
LINE
  8
ITEM_50
 10
59.99999999999994
 20
32.25000000000002
 30
0.0
 11
57.80694370873561
 21
32.25000000000002
 31
0.0
  0
ARC
  8
ITEM_50
 10
57.8069437087354
 20
28.25
 30
0.0
 40
4.000000000000024
 50
89.99999999999694
 51
126.6419281412104
  0
ARC
  8
ITEM_50
 10
70.33999999999987
 20
11.4000000000002
 30
0.0
 40
24.99999999999996
 50
126.6419281412138
 51
144.0201994025261
  0
ARC
  8
ITEM_50
 10
50.91862002843237
 20
25.50000000000002
 30
0.0
 40
1.0
 50
144.0201994025253
 51
269.9999999999996
  0
LINE
  8
ITEM_50
 10
50.91862002843237
 20
24.50000000000002
 30
0.0
 11
54.99999999999994
 21
24.50000000000002
 31
0.0
  0
ARC
  8
ITEM_50
 10
54.99999999999994
 20
23.50000000000002
 30
0.0
 40
1.0
 50
0.0
 51
90.0
  0
LINE
  8
ITEM_50
 10
55.99999999999994
 20
23.50000000000002
 30
0.0
 11
55.99999999999994
 21
21.50000000000002
 31
0.0
  0
ARC
  8
ITEM_50
 10
54.50000000000004
 20
21.50000000000012
 30
0.0
 40
1.4999999999999
 50
269.9999999999961
 51
359.9999999999961
  0
LINE
  8
ITEM_50
 10
54.49999999999994
 20
20.00000000000022
 30
0.0
 11
25.49999999999994
 21
20.00000000000022
 31
0.0
  0
ARC
  8
ITEM_50
 10
25.49999999999994
 20
21.50000000000023
 30
0.0
 40
1.500000000000003
 50
179.999999999999
 51
269.9999999999998
  0
LINE
  8
ITEM_50
 10
23.99999999999994
 20
21.50000000000025
 30
0.0
 11
24.0
 21
23.50000000000022
 31
0.0
  0
ARC
  8
ITEM_50
 10
24.99999999999998
 20
23.5000000000002
 30
0.0
 40
0.9999999999999893
 50
89.99999999999938
 51
179.9999999999989
  0
LINE
  8
ITEM_50
 10
25.0
 20
24.50000000000019
 30
0.0
 11
29.08137997156745
 21
24.50000000000011
 31
0.0
  0
ARC
  8
ITEM_50
 10
29.08137997156749
 20
25.5000000000002
 30
0.0
 40
1.000000000000092
 50
269.9999999999979
 51
35.97980059747226
  0
ARC
  8
ITEM_50
 10
9.659999999998849
 20
11.40000000000165
 30
0.0
 40
25.00000000000023
 50
35.97980059746981
 51
53.35807185877939
  0
ARC
  8
ITEM_50
 10
22.19305629126551
 20
28.2500000000002
 30
0.0
 40
3.999999999999996
 50
53.35807185878323
 51
89.99999999999909
  0
LINE
  8
ITEM_50
 10
22.19305629126557
 20
32.25000000000019
 30
0.0
 11
19.99999999999994
 21
32.25000000000022
 31
0.0
  0
LINE
  8
ITEM_50
 10
19.99999999999994
 20
32.25000000000022
 30
0.0
 11
17.80694370873561
 21
32.25000000000022
 31
0.0
  0
ARC
  8
ITEM_50
 10
17.8069437087354
 20
28.25000000000019
 30
0.0
 40
4.000000000000028
 50
89.99999999999694
 51
126.6419281412104
  0
ARC
  8
ITEM_50
 10
30.33999999999986
 20
11.4000000000004
 30
0.0
 40
24.99999999999995
 50
126.6419281412138
 51
144.0201994025261
  0
ARC
  8
ITEM_50
 10
10.91862002843237
 20
25.50000000000022
 30
0.0
 40
1.0
 50
144.0201994025253
 51
269.9999999999996
  0
LINE
  8
ITEM_50
 10
10.91862002843237
 20
24.50000000000022
 30
0.0
 11
14.99999999999994
 21
24.50000000000022
 31
0.0
  0
ARC
  8
ITEM_50
 10
14.99999999999994
 20
23.50000000000022
 30
0.0
 40
1.0
 50
0.0
 51
90.0
  0
LINE
  8
ITEM_50
 10
15.99999999999994
 20
23.50000000000022
 30
0.0
 11
15.99999999999994
 21
21.50000000000022
 31
0.0
  0
ARC
  8
ITEM_50
 10
14.49999999999994
 20
21.50000000000022
 30
0.0
 40
1.5
 50
270.0
 51
0.0
  0
LINE
  8
ITEM_50
 10
14.49999999999994
 20
20.00000000000022
 30
0.0
 11
3.999999999999886
 21
20.00000000000022
 31
0.0
  0
ARC
  8
ITEM_50
 10
3.999999999999799
 20
24.00000000000014
 30
0.0
 40
3.999999999999914
 50
180.0000000000012
 51
270.0000000000011
  0
LINE
  8
ITEM_50
 10
-0.0000000000001137
 20
24.00000000000005
 30
0.0
 11
-0.0000000000001705
 21
34.49999999999994
 31
0.0
  0
ARC
  8
ITEM_50
 10
1.499999999999857
 20
34.49999999999991
 30
0.0
 40
1.500000000000028
 50
89.99999999999892
 51
179.9999999999988
  0
LINE
  8
ITEM_50
 10
1.499999999999886
 20
35.99999999999994
 30
0.0
 11
3.499999999999829
 21
35.99999999999994
 31
0.0
  0
ARC
  8
ITEM_50
 10
3.499999999999857
 20
34.99999999999991
 30
0.0
 40
1.000000000000028
 50
0.0000000000016284
 51
90.00000000000163
  0
LINE
  8
ITEM_50
 10
4.499999999999886
 20
34.99999999999994
 30
0.0
 11
4.499999999999829
 21
30.91862002843237
 31
0.0
  0
ARC
  8
ITEM_50
 10
5.499999999999872
 20
30.91862002843236
 30
0.0
 40
1.000000000000042
 50
179.9999999999996
 51
305.9798005974738
  0
ARC
  8
ITEM_50
 10
-8.600000000000397
 20
50.33999999999931
 30
0.0
 40
24.99999999999982
 50
305.9798005974753
 51
323.3580718587876
  0
ARC
  8
ITEM_50
 10
8.249999999999829
 20
37.8069437087356
 30
0.0
 40
3.999999999999999
 50
323.3580718587866
 51
0.0000000000002036
  0
LINE
  8
ITEM_50
 10
12.24999999999982
 20
37.80694370873561
 30
0.0
 11
12.24999999999988
 21
39.99999999999994
 31
0.0
  0
LINE
  8
ITEM_50
 10
12.24999999999988
 20
39.99999999999994
 30
0.0
 11
12.24999999999988
 21
42.19305629126421
 31
0.0
  0
ARC
  8
ITEM_50
 10
8.249999999999857
 20
42.19305629126414
 30
0.0
 40
4.000000000000028
 50
0.0000000000010178
 51
36.64192814121454
  0
ARC
  8
ITEM_50
 10
-8.600000000000397
 20
29.66000000000051
 30
0.0
 40
24.99999999999982
 50
36.64192814121232
 51
54.02019940252465
  0
ARC
  8
ITEM_50
 10
5.499999999999872
 20
49.08137997156746
 30
0.0
 40
1.000000000000042
 50
54.02019940252615
 51
180.0000000000003
  0
LINE
  8
ITEM_50
 10
4.499999999999829
 20
49.08137997156745
 30
0.0
 11
4.499999999999886
 21
44.99999999999988
 31
0.0
  0
ARC
  8
ITEM_50
 10
3.499999999999857
 20
44.99999999999991
 30
0.0
 40
1.000000000000028
 50
269.9999999999983
 51
359.9999999999983
  0
LINE
  8
ITEM_50
 10
3.499999999999829
 20
43.99999999999988
 30
0.0
 11
1.499999999999886
 21
43.99999999999988
 31
0.0
  0
ARC
  8
ITEM_50
 10
1.499999999999858
 20
45.49999999999991
 30
0.0
 40
1.500000000000028
 50
180.000000000001
 51
270.000000000001
  0
LINE
  8
ITEM_50
 10
-0.0000000000001705
 20
45.49999999999988
 30
0.0
 11
-0.0000000000001137
 21
64.00000000000022
 31
0.0
  0
LINE
  8
ITEM_50
 10
-0.0000000000001137
 20
64.00000000000022
 30
0.0
 11
-0.0000000000001137
 21
74.50000000000011
 31
0.0
  0
ARC
  8
ITEM_50
 10
1.499999999999858
 20
74.50000000000014
 30
0.0
 40
1.499999999999972
 50
90.0000000000011
 51
180.000000000001
  0
LINE
  8
ITEM_50
 10
1.499999999999829
 20
76.00000000000011
 30
0.0
 11
3.499999999999886
 21
76.00000000000011
 31
0.0
  0
ARC
  8
ITEM_50
 10
3.499999999999858
 20
75.00000000000014
 30
0.0
 40
0.9999999999999716
 50
359.9999999999983
 51
89.99999999999839
  0
LINE
  8
ITEM_50
 10
4.499999999999829
 20
75.00000000000011
 30
0.0
 11
4.499999999999886
 21
70.91862002843254
 31
0.0
  0
ARC
  8
ITEM_50
 10
5.499999999999857
 20
70.91862002843252
 30
0.0
 40
0.9999999999999716
 50
179.9999999999991
 51
305.979800597474
  0
ARC
  8
ITEM_50
 10
-8.599999999999877
 20
90.34000000000021
 30
0.0
 40
25.00000000000002
 50
305.9798005974733
 51
323.3580718587857
  0
ARC
  8
ITEM_50
 10
8.249999999999786
 20
77.80694370873547
 30
0.0
 40
4.000000000000042
 50
323.3580718587909
 51
0.0000000000044782
  0
LINE
  8
ITEM_50
 10
12.24999999999982
 20
77.80694370873578
 30
0.0
 11
12.24999999999988
 21
80.00000000000011
 31
0.0
  0
LINE
  8
ITEM_50
 10
12.24999999999988
 20
80.00000000000011
 30
0.0
 11
12.24999999999988
 21
82.19305629126438
 31
0.0
  0
ARC
  8
ITEM_50
 10
8.249999999999857
 20
82.19305629126431
 30
0.0
 40
4.000000000000028
 50
0.0000000000010178
 51
36.64192814121454
  0
ARC
  8
ITEM_50
 10
-8.60000000000039
 20
69.66000000000077
 30
0.0
 40
24.99999999999976
 50
36.64192814121216
 51
54.02019940252449
  0
ARC
  8
ITEM_50
 10
5.499999999999886
 20
89.08137997156762
 30
0.0
 40
1.000000000000056
 50
54.02019940252573
 51
180.0
  0
LINE
  8
ITEM_50
 10
4.499999999999829
 20
89.08137997156762
 30
0.0
 11
4.499999999999886
 21
85.00000000000005
 31
0.0
  0
ARC
  8
ITEM_50
 10
3.499999999999857
 20
85.00000000000008
 30
0.0
 40
1.000000000000028
 50
269.9999999999983
 51
359.9999999999983
  0
LINE
  8
ITEM_50
 10
3.499999999999829
 20
84.00000000000005
 30
0.0
 11
1.499999999999886
 21
84.00000000000005
 31
0.0
  0
ARC
  8
ITEM_50
 10
1.499999999999857
 20
85.50000000000008
 30
0.0
 40
1.500000000000028
 50
180.000000000001
 51
270.000000000001
  0
LINE
  8
ITEM_50
 10
-0.0000000000001705
 20
85.50000000000005
 30
0.0
 11
-0.0000000000001137
 21
95.99999999999994
 31
0.0
  0
ARC
  8
ITEM_50
 10
3.999999999999886
 20
95.99999999999994
 30
0.0
 40
4.0
 50
90.0
 51
180.0
  0
LINE
  8
ITEM_50
 10
3.999999999999886
 20
99.99999999999994
 30
0.0
 11
14.49999999999994
 21
99.99999999999994
 31
0.0
  0
ARC
  8
ITEM_50
 10
14.49999999999994
 20
98.49999999999994
 30
0.0
 40
1.5
 50
0.0
 51
90.0
  0
LINE
  8
ITEM_50
 10
15.99999999999994
 20
98.49999999999994
 30
0.0
 11
15.99999999999994
 21
96.49999999999994
 31
0.0
  0
ARC
  8
ITEM_50
 10
14.99999999999994
 20
96.49999999999994
 30
0.0
 40
1.0
 50
270.0
 51
0.0
  0
LINE
  8
ITEM_50
 10
14.99999999999994
 20
95.49999999999994
 30
0.0
 11
10.91862002843237
 21
95.49999999999994
 31
0.0
  0
ARC
  8
ITEM_50
 10
10.91862002843237
 20
94.49999999999994
 30
0.0
 40
1.0
 50
90.00000000000041
 51
215.9798005974746
  0
ARC
  8
ITEM_50
 10
30.33999999999988
 20
108.5999999999997
 30
0.0
 40
24.99999999999993
 50
215.9798005974736
 51
233.3580718587859
  0
ARC
  8
ITEM_50
 10
17.80694370873538
 20
91.75000000000001
 30
0.0
 40
4.000000000000069
 50
233.3580718587897
 51
270.0000000000032
  0
LINE
  8
ITEM_50
 10
17.80694370873561
 20
87.74999999999994
 30
0.0
 11
19.99999999999994
 21
87.74999999999994
 31
0.0
  0
LINE
  8
ITEM_50
 10
19.99999999999994
 20
87.74999999999994
 30
0.0
 11
22.19305629126557
 21
87.74999999999997
 31
0.0
  0
ARC
  8
ITEM_50
 10
22.19305629126551
 20
91.74999999999997
 30
0.0
 40
4.0
 50
270.0000000000009
 51
306.6419281412167
  0
ARC
  8
ITEM_50
 10
9.659999999998849
 20
108.5999999999985
 30
0.0
 40
25.00000000000023
 50
306.6419281412206
 51
324.0201994025301
  0
ARC
  8
ITEM_50
 10
29.08137997156749
 20
94.49999999999997
 30
0.0
 40
1.000000000000097
 50
324.0201994025273
 51
90.00000000000203
  0
LINE
  8
ITEM_50
 10
29.08137997156745
 20
95.50000000000005
 30
0.0
 11
25.0
 21
95.49999999999997
 31
0.0
  0
ARC
  8
ITEM_50
 10
24.99999999999998
 20
96.49999999999995
 30
0.0
 40
0.9999999999999858
 50
180.0000000000008
 51
270.0000000000006
  0
LINE
  8
ITEM_50
 10
24.0
 20
96.49999999999994
 30
0.0
 11
23.99999999999994
 21
98.49999999999991
 31
0.0
  0
ARC
  8
ITEM_50
 10
25.49999999999994
 20
98.49999999999994
 30
0.0
 40
1.500000000000003
 50
90.00000000000014
 51
180.000000000001
  0
LINE
  8
ITEM_50
 10
25.49999999999994
 20
99.99999999999994
 30
0.0
 11
54.49999999999994
 21
99.99999999999994
 31
0.0
  0
ARC
  8
ITEM_50
 10
54.49999999999994
 20
98.49999999999994
 30
0.0
 40
1.5
 50
0.0
 51
90.0
  0
LINE
  8
ITEM_50
 10
55.99999999999994
 20
98.49999999999994
 30
0.0
 11
55.99999999999994
 21
96.49999999999994
 31
0.0
  0
ARC
  8
ITEM_50
 10
54.99999999999994
 20
96.49999999999994
 30
0.0
 40
1.0
 50
270.0
 51
0.0
  0
LINE
  8
ITEM_50
 10
54.99999999999994
 20
95.49999999999994
 30
0.0
 11
50.91862002843237
 21
95.49999999999994
 31
0.0
  0
ARC
  8
ITEM_50
 10
50.91862002843237
 20
94.49999999999994
 30
0.0
 40
1.0
 50
90.00000000000041
 51
215.9798005974746
  0
ARC
  8
ITEM_50
 10
70.33999999999987
 20
108.5999999999997
 30
0.0
 40
24.99999999999992
 50
215.9798005974737
 51
233.358071858786
  0
ARC
  8
ITEM_50
 10
57.80694370873538
 20
91.75000000000001
 30
0.0
 40
4.000000000000071
 50
233.3580718587897
 51
270.0000000000032
  0
LINE
  8
ITEM_50
 10
57.80694370873561
 20
87.74999999999994
 30
0.0
 11
59.99999999999994
 21
87.74999999999994
 31
0.0
  0
LINE
  8
ITEM_50
 10
59.99999999999994
 20
87.74999999999994
 30
0.0
 11
62.19305629126557
 21
87.74999999999997
 31
0.0
  0
ARC
  8
ITEM_50
 10
62.19305629126551
 20
91.74999999999997
 30
0.0
 40
4.0
 50
270.0000000000009
 51
306.6419281412167
  0
ARC
  8
ITEM_50
 10
49.65999999999885
 20
108.5999999999985
 30
0.0
 40
25.00000000000023
 50
306.6419281412206
 51
324.0201994025301
  0
ARC
  8
ITEM_50
 10
69.0813799715675
 20
94.49999999999997
 30
0.0
 40
1.000000000000091
 50
324.0201994025271
 51
90.00000000000244
  0
LINE
  8
ITEM_50
 10
69.08137997156745
 20
95.50000000000005
 30
0.0
 11
65.0
 21
95.49999999999997
 31
0.0
  0
ARC
  8
ITEM_50
 10
64.99999999999998
 20
96.49999999999995
 30
0.0
 40
0.9999999999999858
 50
180.0000000000008
 51
270.0000000000007
  0
LINE
  8
ITEM_50
 10
64.0
 20
96.49999999999994
 30
0.0
 11
63.99999999999994
 21
98.49999999999991
 31
0.0
  0
ARC
  8
ITEM_50
 10
65.49999999999994
 20
98.49999999999994
 30
0.0
 40
1.5
 50
90.0
 51
180.000000000001
  0
LINE
  8
ITEM_50
 10
65.49999999999994
 20
99.99999999999994
 30
0.0
 11
94.49999999999994
 21
99.99999999999994
 31
0.0
  0
ARC
  8
ITEM_50
 10
94.49999999999994
 20
98.49999999999994
 30
0.0
 40
1.5
 50
0.0
 51
90.0
  0
LINE
  8
ITEM_50
 10
95.99999999999994
 20
98.49999999999994
 30
0.0
 11
95.99999999999994
 21
96.49999999999994
 31
0.0
  0
ARC
  8
ITEM_50
 10
94.99999999999994
 20
96.49999999999994
 30
0.0
 40
1.0
 50
270.0
 51
0.0
  0
LINE
  8
ITEM_50
 10
94.99999999999994
 20
95.49999999999994
 30
0.0
 11
90.91862002843237
 21
95.49999999999994
 31
0.0
  0
ARC
  8
ITEM_50
 10
90.91862002843237
 20
94.49999999999994
 30
0.0
 40
1.0
 50
90.0
 51
215.9798005974748
  0
ARC
  8
ITEM_50
 10
110.3399999999998
 20
108.5999999999997
 30
0.0
 40
24.99999999999992
 50
215.9798005974737
 51
233.358071858786
  0
ARC
  8
ITEM_50
 10
97.80694370873538
 20
91.75000000000001
 30
0.0
 40
4.000000000000071
 50
233.3580718587897
 51
270.0000000000032
  0
LINE
  8
ITEM_50
 10
51.81066017177982
 20
84.30695315958834
 30
0.0
 11
45.65685424949236
 21
90.4607590818758
 31
0.0
  0
ARC
  8
ITEM_50
 10
40.0
 20
84.8039048323834
 30
0.0
 40
8.000000000000003
 50
45.00000000000014
 51
134.9999999999998
  0
LINE
  8
ITEM_50
 10
34.34314575050763
 20
90.4607590818758
 30
0.0
 11
28.18933982822011
 21
84.30695315958834
 31
0.0
  0
ARC
  8
ITEM_50
 10
29.24999999999994
 20
83.24629298780853
 30
0.0
 40
1.500000000000002
 50
135.0000000000003
 51
180.0000000000005
  0
LINE
  8
ITEM_50
 10
27.74999999999994
 20
83.24629298780851
 30
0.0
 11
27.74999999999997
 21
76.03427124746994
 31
0.0
  0
LINE
  8
ITEM_50
 10
27.74999999999997
 20
76.03427124746994
 30
0.0
 11
25.85786437626501
 21
74.14213562373495
 31
0.0
  0
LINE
  8
ITEM_50
 10
25.85786437626501
 20
74.14213562373495
 30
0.0
 11
23.96572875253005
 21
72.24999999999997
 31
0.0
  0
LINE
  8
ITEM_50
 10
23.96572875253005
 20
72.24999999999997
 30
0.0
 11
16.75370701219148
 21
72.25000000000002
 31
0.0
  0
ARC
  8
ITEM_50
 10
16.75370701219146
 20
70.75000000000002
 30
0.0
 40
1.5
 50
89.99999999999944
 51
134.9999999999996
  0
LINE
  8
ITEM_50
 10
15.69304684041165
 20
71.81066017177985
 30
0.0
 11
9.539240918124193
 21
65.65685424949239
 31
0.0
  0
ARC
  8
ITEM_50
 10
15.19609516761657
 20
60.0
 30
0.0
 40
8.000000000000014
 50
134.9999999999999
 51
225.0
  0
LINE
  8
ITEM_50
 10
9.539240918124193
 20
54.3431457505076
 30
0.0
 11
15.69304684041162
 21
48.18933982822017
 31
0.0
  0
ARC
  8
ITEM_50
 10
16.75370701219147
 20
49.24999999999998
 30
0.0
 40
1.500000000000014
 50
224.9999999999991
 51
269.9999999999993
  0
LINE
  8
ITEM_50
 10
16.75370701219145
 20
47.74999999999997
 30
0.0
 11
23.96572875253005
 21
47.75
 31
0.0
  0
LINE
  8
ITEM_50
 10
23.96572875253005
 20
47.75
 30
0.0
 11
25.85786437626501
 21
45.85786437626504
 31
0.0
  0
LINE
  8
ITEM_50
 10
25.85786437626501
 20
45.85786437626504
 30
0.0
 11
27.74999999999997
 21
43.96572875253008
 31
0.0
  0
LINE
  8
ITEM_50
 10
27.74999999999997
 20
43.96572875253008
 30
0.0
 11
27.74999999999997
 21
36.75370701219151
 31
0.0
  0
ARC
  8
ITEM_50
 10
29.24999999999993
 20
36.75370701219151
 30
0.0
 40
1.499999999999964
 50
180.0
 51
225.0000000000001
  0
LINE
  8
ITEM_50
 10
28.18933982822014
 20
35.69304684041171
 30
0.0
 11
34.34314570123194
 21
29.53924091812424
 31
0.0
  0
ARC
  8
ITEM_50
 10
39.99999995072434
 20
35.19609516761663
 30
0.0
 40
8.000000000000014
 50
224.9999999999999
 51
315.0
  0
LINE
  8
ITEM_50
 10
45.65685420021674
 20
29.53924091812424
 30
0.0
 11
51.8106601717798
 21
35.69304684041171
 31
0.0
  0
ARC
  8
ITEM_50
 10
50.75
 20
36.75370701219151
 30
0.0
 40
1.499999999999966
 50
314.9999999999997
 51
0.0
  0
LINE
  8
ITEM_50
 10
52.24999999999997
 20
36.75370701219151
 30
0.0
 11
52.24999999999997
 21
43.96572875253008
 31
0.0
  0
LINE
  8
ITEM_50
 10
52.24999999999997
 20
43.96572875253008
 30
0.0
 11
54.14213562373493
 21
45.85786437626504
 31
0.0
  0
LINE
  8
ITEM_50
 10
54.14213562373493
 20
45.85786437626504
 30
0.0
 11
56.03427124746988
 21
47.75
 31
0.0
  0
LINE
  8
ITEM_50
 10
56.03427124746988
 20
47.75
 30
0.0
 11
63.24629298780848
 21
47.74999999999997
 31
0.0
  0
ARC
  8
ITEM_50
 10
63.24629298780847
 20
49.24999999999998
 30
0.0
 40
1.500000000000014
 50
270.0000000000005
 51
315.0000000000007
  0
LINE
  8
ITEM_50
 10
64.30695315958831
 20
48.18933982822017
 30
0.0
 11
70.46075908187575
 21
54.3431457505076
 31
0.0
  0
ARC
  8
ITEM_50
 10
64.80390483238336
 20
60.0
 30
0.0
 40
8.000000000000014
 50
314.9999999999999
 51
45.00000000000007
  0
LINE
  8
ITEM_50
 10
70.46075908187575
 20
65.65685424949239
 30
0.0
 11
64.30695315958828
 21
71.81066017177985
 31
0.0
  0
ARC
  8
ITEM_50
 10
63.24629298780847
 20
70.75000000000002
 30
0.0
 40
1.500000000000002
 50
45.00000000000038
 51
90.00000000000054
  0
LINE
  8
ITEM_50
 10
63.24629298780845
 20
72.25000000000002
 30
0.0
 11
56.03427124746988
 21
72.24999999999997
 31
0.0
  0
LINE
  8
ITEM_50
 10
56.03427124746988
 20
72.24999999999997
 30
0.0
 11
54.14213562373493
 21
74.14213562373495
 31
0.0
  0
LINE
  8
ITEM_50
 10
54.14213562373493
 20
74.14213562373495
 30
0.0
 11
52.24999999999997
 21
76.03427124746994
 31
0.0
  0
LINE
  8
ITEM_50
 10
52.24999999999997
 20
76.03427124746994
 30
0.0
 11
52.25
 21
83.24629298780851
 31
0.0
  0
ARC
  8
ITEM_50
 10
50.75
 20
83.24629298780853
 30
0.0
 40
1.5
 50
359.9999999999994
 51
44.9999999999996
  0
LINE
  8
ITEM_50
 10
81.06066017177968
 20
95.05695315955878
 30
0.0
 11
91.81066017177974
 21
84.30695315955884
 31
0.0
  0
ARC
  8
ITEM_50
 10
90.74999999999991
 20
83.24629298777902
 30
0.0
 40
1.500000000000002
 50
359.9999999999994
 51
44.9999999999996
  0
LINE
  8
ITEM_50
 10
92.24999999999991
 20
83.24629298777901
 30
0.0
 11
92.24999999999985
 21
76.7537070122209
 31
0.0
  0
ARC
  8
ITEM_50
 10
90.74999999999982
 20
76.75370701222088
 30
0.0
 40
1.500000000000028
 50
315.0000000000011
 51
0.0000000000005428
  0
LINE
  8
ITEM_50
 10
91.81066017177968
 20
75.69304684044107
 30
0.0
 11
81.06066017177974
 21
64.94304684044109
 31
0.0
  0
ARC
  8
ITEM_50
 10
79.99999999999991
 20
66.00370701222092
 30
0.0
 40
1.500000000000012
 50
225.0
 51
315.0
  0
LINE
  8
ITEM_50
 10
78.93933982822008
 20
64.94304684044109
 30
0.0
 11
68.18933982822011
 21
75.69304684044107
 31
0.0
  0
ARC
  8
ITEM_50
 10
69.24999999999994
 20
76.75370701222088
 30
0.0
 40
1.500000000000002
 50
179.9999999999994
 51
224.9999999999996
  0
LINE
  8
ITEM_50
 10
67.74999999999994
 20
76.7537070122209
 30
0.0
 11
67.74999999999991
 21
83.24629298777901
 31
0.0
  0
ARC
  8
ITEM_50
 10
69.24999999999991
 20
83.24629298777902
 30
0.0
 40
1.5
 50
135.0000000000003
 51
180.0000000000005
  0
LINE
  8
ITEM_50
 10
68.18933982822008
 20
84.30695315955884
 30
0.0
 11
78.93933982822002
 21
95.05695315955878
 31
0.0
  0
ARC
  8
ITEM_50
 10
79.99999999999985
 20
93.99629298777895
 30
0.0
 40
1.500000000000012
 50
45.0
 51
135.0
  0
LINE
  8
ITEM_50
 10
81.06066017177974
 20
24.94304684044109
 30
0.0
 11
91.81066017177968
 21
35.69304684044107
 31
0.0
  0
ARC
  8
ITEM_50
 10
90.74999999999982
 20
36.75370701222089
 30
0.0
 40
1.500000000000027
 50
315.0000000000009
 51
0.0000000000002714
  0
LINE
  8
ITEM_50
 10
92.24999999999985
 20
36.7537070122209
 30
0.0
 11
92.24999999999991
 21
43.24629298777901
 31
0.0
  0
ARC
  8
ITEM_50
 10
90.74999999999991
 20
43.24629298777902
 30
0.0
 40
1.5
 50
359.9999999999994
 51
44.9999999999996
  0
LINE
  8
ITEM_50
 10
91.81066017177974
 20
44.30695315955884
 30
0.0
 11
81.06066017177968
 21
55.05695315955878
 31
0.0
  0
ARC
  8
ITEM_50
 10
79.99999999999985
 20
53.99629298777896
 30
0.0
 40
1.500000000000007
 50
44.9999999999998
 51
135.0000000000001
  0
LINE
  8
ITEM_50
 10
78.93933982822002
 20
55.05695315955878
 30
0.0
 11
68.18933982822008
 21
44.30695315955884
 31
0.0
  0
ARC
  8
ITEM_50
 10
69.24999999999991
 20
43.24629298777902
 30
0.0
 40
1.500000000000002
 50
135.0000000000003
 51
180.0000000000005
  0
LINE
  8
ITEM_50
 10
67.74999999999991
 20
43.24629298777901
 30
0.0
 11
67.74999999999994
 21
36.7537070122209
 31
0.0
  0
ARC
  8
ITEM_50
 10
69.24999999999994
 20
36.75370701222088
 30
0.0
 40
1.5
 50
179.9999999999994
 51
224.9999999999996
  0
LINE
  8
ITEM_50
 10
68.18933982822011
 20
35.69304684044107
 30
0.0
 11
78.93933982822008
 21
24.94304684044109
 31
0.0
  0
ARC
  8
ITEM_50
 10
79.99999999999991
 20
26.00370701222092
 30
0.0
 40
1.500000000000012
 50
225.0
 51
315.0
  0
LINE
  8
ITEM_50
 10
131.81066017178
 20
84.30695315958831
 30
0.0
 11
125.6568542494925
 21
90.46075908187577
 31
0.0
  0
ARC
  8
ITEM_50
 10
120.0000000000001
 20
84.80390483238338
 30
0.0
 40
8.000000000000003
 50
45.00000000000014
 51
134.9999999999998
  0
LINE
  8
ITEM_50
 10
114.3431457505078
 20
90.46075908187577
 30
0.0
 11
108.1893398282202
 21
84.30695315958831
 31
0.0
  0
ARC
  8
ITEM_50
 10
109.25
 20
83.2462929878085
 30
0.0
 40
1.500000000000002
 50
135.0000000000003
 51
180.0000000000005
  0
LINE
  8
ITEM_50
 10
107.75
 20
83.24629298780848
 30
0.0
 11
107.7500000000001
 21
76.03427124746991
 31
0.0
  0
LINE
  8
ITEM_50
 10
107.7500000000001
 20
76.03427124746991
 30
0.0
 11
105.8578643762651
 21
74.14213562373493
 31
0.0
  0
LINE
  8
ITEM_50
 10
105.8578643762651
 20
74.14213562373493
 30
0.0
 11
103.9657287525301
 21
72.24999999999994
 31
0.0
  0
LINE
  8
ITEM_50
 10
103.9657287525301
 20
72.24999999999994
 30
0.0
 11
96.75370701219162
 21
72.25
 31
0.0
  0
ARC
  8
ITEM_50
 10
96.75370701219161
 20
70.75
 30
0.0
 40
1.5
 50
89.99999999999944
 51
134.9999999999996
  0
LINE
  8
ITEM_50
 10
95.69304684041179
 20
71.81066017177982
 30
0.0
 11
89.53924091812433
 21
65.65685424949236
 31
0.0
  0
ARC
  8
ITEM_50
 10
95.19609516761671
 20
59.99999999999997
 30
0.0
 40
8.000000000000014
 50
134.9999999999999
 51
225.0
  0
LINE
  8
ITEM_50
 10
89.53924091812433
 20
54.34314575050757
 30
0.0
 11
95.69304684041176
 21
48.18933982822014
 31
0.0
  0
ARC
  8
ITEM_50
 10
96.75370701219161
 20
49.24999999999995
 30
0.0
 40
1.500000000000012
 50
224.9999999999992
 51
269.9999999999994
  0
LINE
  8
ITEM_50
 10
96.75370701219159
 20
47.74999999999994
 30
0.0
 11
103.9657287525301
 21
47.74999999999997
 31
0.0
  0
LINE
  8
ITEM_50
 10
103.9657287525301
 20
47.74999999999997
 30
0.0
 11
105.8578643762651
 21
45.85786437626501
 31
0.0
  0
LINE
  8
ITEM_50
 10
105.8578643762651
 20
45.85786437626501
 30
0.0
 11
107.7500000000001
 21
43.96572875253005
 31
0.0
  0
LINE
  8
ITEM_50
 10
107.7500000000001
 20
43.96572875253005
 30
0.0
 11
107.7500000000001
 21
36.75370701219148
 31
0.0
  0
ARC
  8
ITEM_50
 10
109.25
 20
36.75370701219148
 30
0.0
 40
1.499999999999971
 50
180.0
 51
225.0
  0
LINE
  8
ITEM_50
 10
108.1893398282202
 20
35.69304684041168
 30
0.0
 11
114.343145701232
 21
29.53924091812422
 31
0.0
  0
ARC
  8
ITEM_50
 10
119.9999999507244
 20
35.19609516761663
 30
0.0
 40
8.000000000000053
 50
224.9999999999999
 51
315.0
  0
LINE
  8
ITEM_50
 10
125.6568542002169
 20
29.53924091812422
 30
0.0
 11
131.8106601717799
 21
35.69304684041168
 31
0.0
  0
ARC
  8
ITEM_50
 10
130.7500000000001
 20
36.75370701219148
 30
0.0
 40
1.499999999999971
 50
315.0
 51
0.0
  0
LINE
  8
ITEM_50
 10
132.2500000000001
 20
36.75370701219148
 30
0.0
 11
132.2500000000001
 21
43.96572875253005
 31
0.0
  0
LINE
  8
ITEM_50
 10
132.2500000000001
 20
43.96572875253005
 30
0.0
 11
134.142135623735
 21
45.85786437626501
 31
0.0
  0
LINE
  8
ITEM_50
 10
134.142135623735
 20
45.85786437626501
 30
0.0
 11
136.03427124747
 21
47.74999999999997
 31
0.0
  0
LINE
  8
ITEM_50
 10
136.03427124747
 20
47.74999999999997
 30
0.0
 11
143.2462929878086
 21
47.74999999999994
 31
0.0
  0
ARC
  8
ITEM_50
 10
143.2462929878086
 20
49.25000000000002
 30
0.0
 40
1.500000000000085
 50
270.0
 51
315.0
  0
LINE
  8
ITEM_50
 10
144.3069531595884
 20
48.18933982822014
 30
0.0
 11
150.4607590818758
 21
54.34314575050757
 31
0.0
  0
ARC
  8
ITEM_50
 10
144.8039048323834
 20
59.99999999999997
 30
0.0
 40
8.000000000000024
 50
315.0
 51
45.0
  0
LINE
  8
ITEM_50
 10
150.4607590818758
 20
65.65685424949236
 30
0.0
 11
144.3069531595884
 21
71.81066017177982
 31
0.0
  0
ARC
  8
ITEM_50
 10
143.2462929878086
 20
70.75
 30
0.0
 40
1.499999999999992
 50
45.00000000000076
 51
90.00000000000108
  0
LINE
  8
ITEM_50
 10
143.2462929878086
 20
72.25
 30
0.0
 11
136.03427124747
 21
72.24999999999994
 31
0.0
  0
LINE
  8
ITEM_50
 10
136.03427124747
 20
72.24999999999994
 30
0.0
 11
134.142135623735
 21
74.14213562373493
 31
0.0
  0
LINE
  8
ITEM_50
 10
134.142135623735
 20
74.14213562373493
 30
0.0
 11
132.2500000000001
 21
76.03427124746991
 31
0.0
  0
LINE
  8
ITEM_50
 10
132.2500000000001
 20
76.03427124746991
 30
0.0
 11
132.2500000000001
 21
83.24629298780848
 31
0.0
  0
ARC
  8
ITEM_50
 10
130.7500000000001
 20
83.24629298780857
 30
0.0
 40
1.499999999999971
 50
359.9999999999967
 51
44.99999999999693
  0
LINE
  8
ITEM_50
 10
171.0
 20
100.0
 30
0.0
 11
171.0
 21
20.0
 31
0.0
  0
LINE
  8
ITEM_50
 10
160.0
 20
9.0
 30
0.0
 11
0.0
 21
9.0
 31
0.0
  0
ENDSEC
  0
EOF
